Make your own free website on Tripod.com








boilermaker News   |   Reviews   |   Sights   |   Sounds   |   Lyrics   |   Tabs   |   Dinks   |   Links


Slow Down

Intro
------------------------------------------------------------ *Repeat both lines 2 X
------------------------------------------------------------
---19----1919--19----1919--18----18--1818--- 181818-
----0-0-0-0-0-0-0-0-0-0-0-0-0-0-0-0-0-0-0-0-0-0-0-0--
------------------------------------------------------------
------------------------------------------------------------

---------------------------------------------------------------------
---19--1919- 19191515--------------------------------------------
----0-0-0-0-0- 0-0-0-0-16161616-19---- 19----19----- 191919-
------------------------- -0-0-0-0-0- 0-0-0-0-0-0-0-0-0-0-0-0-0-
---------------------------------------------------------------------
---------------------------------------------------------------------

Verse

pull back my lip while I watch my step spitting words hurts me
facing backwards might cause you to slip......to slow down
watch your step take a little trip down who knows where
----------------------------------------------------------------------- *Rhythm is left up to the individual and chords
---7----------7-------------------------3-----------------3------------ match up with the words so follow
---7----------7-------------------------0-----------------0------------ chord changes accordingly.
---0----------0-------------------------0-----------------0------------
---5----------4-------------------------2-----------------2------------
----------------------------------------------------------  0------------
land.........................your broken hand scratch my back....mend me
---------------------------------------------------------------------
---2-------------------7-------------7----------------3-------------
---2-------------------7-------------7----------------0-------------
---0------------------ 0-------------0----------------0-------------
---x-------------------5-------------4--------------- 2-------------
---2-----------------------------------------------------------------
now...............my chance to move on who's to know...but the outer side
-----------------------------------------------------------2---------
---2------------0------------------2----------------------3---------
---2------------2------------------2----------------------0---------
---0------------0------------------0----------------------0---------
---x------------x-------------------x--------------------- x---------
---2------------3------------------2----------------------3---------
the outside might glipse..........a glimpse gather my sense........
---0--------------------------------------------------- ------0-----
---3--------------0--------------------------2---------------3-----
---0--------------2--------------------------2---------------0-----
---0--------------0--------------------------0---------------0-----
---2--------------x--------------------------x--------------  2------
---0--------------3--------------------------2---------------0------

Norman

Intro
---------------------------------------------------------------- I-------------------
------------------7--7-77- 777--------------------------------I--333333333333
------------------7--7-77- 777 0------------------------------I--444444444444
---5--5-554444-0--0-00 -000 5--5-554444-7--7-77--777-I--555555555555
---5--5-555555-x--x- xx--xxx  3- 3-333333-5--5-55--555--I-555555555555
---3--3-333333-7--7-77--777 5--5-555555-7--7-77--777-I-------------------
Verse
--------------------------------------------------------------------
---7-77777-77777-77777-77777-77777-77777-7777888888-
---7-77777-77776-66666-66667-77777-77777-7777777777-
---0-00000-00000-00000-00000-00000-00000-0000000000-
---5-55555-55555-55555-55555-55555-5555X-XXXXXXXXX-
---------------------------------------------------7-7777777777-
         bags of sand won't let the rain come in.....
--------------------------------------------------------------------- * ~ indicates slide
---5-55555-55555-55555-555--------------------------- -88888-
---5-55555-55554-44444-44455~7-7-77~9-9-910101099999-
---0-00000-00000-00000-000XX-X-X-XX-X--X-XXXXXXXXXX-
---X-XXXX-XXXXX-XXXXX-XX33~5-5-55~7-7-788888877777-
---5-55555-55554-44444-444-------------------------------------

Last Stop on the Way to Vegas

Intro/Verse
--------------------------------
--------------------------------
---7---7-77-55-5-5-454-11--
---0---0-00-00-0-0-000--0--
---9---9-99-77-7-7-555-10--
-----------------------------0--
Bridge
--------------------------------- repeat 4 x then to Chorus
--------0--000000000---------
--------4-4444444444---------
--------0-0004444544---------
------- X-XXXXXXXXX---------
---3-3-3-3333333333---------
Chorus
----------------------------I--------I---------
---8-888-8888888-88--- I  --10--I --- 12 Play rhythm as indicated in first bar for last 2 chords then back to Bridge.       
---9-999-9999999-99--- I  -- 9-- I --- 12
---0-000-0000000-00--- I  -- X-- I ---  0
---X-XXX-XXXXXX-XX-    I --0-- I ---  x
---8-888-8888888-88--- I -- 10-- I ---12

Last on the Drive

Intro
---------------I----------------- Repeat 1 X
---3---------- I---3-----33-----
---2---------- I---4-----22-----
---0---------- I---0-----04(bend <4> 1/2 way up with chord)
---x-----------I---X-----XX------
---3---------- I---3-----33------
Verse
-----------------------------
---2--2-22--22-3--3-33--33----
---2--2-22--22-2--2-22--22----
---0--0-00--00-0--0-00--00----
---2--2-22--22-X--X-XX--XX----
----------------- 3--3-33--33----
Chorus
------------------------------------
---8--8-88--88-12--12--12--12-
---9--9-99--99-12--12--11--10-
---0--0-00--00--0---0--- 0---0--
---X--X-XX--XX-X----X---X---X--
---8--8-88--88-12--12--10--10-

Here Comes Rolling

Intro/Verse
------------------------ I------------------------- I------------------------I------------------------ *palm mute the <3> in between
---------- 3-------------I---------3-------------- I------------------------I-----------------------    chords on the A string.
---4------4------4-44- I-4-------4----4-4^555-I-5-55-52--2222-22--I-5-55-52--2222-22--
---0------0------0-00- I-0-------0----0-0 000--I-0-00-00--0000-00--I-0-00-00--0000-00--
---3-33-33-33-33-33-I-3-33-3-3-33-3-3333-  I-x-xx-xxx--xxxx--xx-- I-x-xxx-xx--xxxx--xx--
------------------------ I------------------------ -I-3-33-33--3333-33--I-3-33-33--3333-33--

--------------------------------------------------I
---------------------------------7--7-777777---I
---------------------------------7--7-777777---I
---4-44445-5-44~5-55~777-00-0-000000---I
---x-xxxxxx-x--xxxx--xx--x--x--xx-x-xxxxxxxx---I
---2-22223-3-22~3-33~555-55-5-555555---I

Switch

Intro
-------------------------------------------------------3- Repeat 1 X
------ 0-----0----- 0---- 0---0------0------------0--0-
---0--0--0--0--0--0--0--0-- x--x---x--x--0--0--0--0-
---5--5--5--5--0--0--0--0-- 9--9--9--9--0--0--0--0-
---3--3--3--3--2--2--2--2-- 7--7--7--7--2--2--2--2--
-------------------------------0--0--0--0--3--3--3--3--

--------------------------------------------------------------
----------------- 0-- 0---0-- 0-------------------------------
---0-----0-------4-- 4-- 4-- 4-- -0--0--0--0--0--0--0--0--
---4--4--4--4---0-- 0-- 0-- 0--- 7--7--7--7--0--0--0--0--
---2--2--2--2---5-- 5---5-- 5--- 0--0--0--0--5--5--5--5--
---0--0--0--0-------------------- 8--8--8--8--3--3--3--3--

Chorus
------------------------------------------------------------
------------------------------------------------------------ * ~ indicates slide
---0-----0----- 0---- 0------0-----0-----------------------
---4--4--4--4--4--4- 4- 4--9--9--9--9--7--7--0--0---0--
---2--2--2--2--2 -2--2--2--7--7--7--7--0--0--7~9---9--
---0--0--0--0--3--3--3--3--8--8--8--8--8--8--8~10-10-

Pathos Delay

Intro/Verse
---------------------------------------------------------------
---------------0-----0----0- -0-- 0-------------------------- * ^ indicates hammer-on
-------------0---0-----0- 0-- 0-- 0-------------------------- * P.M. indicates palm mute
--------4^5-------4------2 --2-- 2---------------22~44---- * Repeat section and play open A (0) with chord instead of (3)
-------------------------- 3/0 3/0-3--------------33~55----
---0--0-------------------------------------------------------
    (P.M.)
--------------------------------------------------------------
---8---8--8-77-7-7-8---------------------------------------
---0---0--0-00-0-0-077-7-77-77-7-7-999999999999999-
---0---0--0-00-0-0-000-0-00-00-0-0-000000000000000-
---x---x--x--xx-x-x-xxx--x-xx-xx-x-x--xxxxxxxxxxxxxxxxx-
---8---8--8-88-8-8-877-7-77-77-7-7-888888888888888-

--------------------------------------------------------------
--------------------------------------------------------------
--------------------------------------------------------------
---99999999999999999999999999999------------------- *Double-time section just before chorus comes in.
---xxxxxxxxxxxxxxxxxxxxxxxxxxxxxxxxx--------------------
---88888888888888888888888888888-------------------
chorus

-------------------------------------------------|-------------------------------------------------
---88888888777777777777777777777777-|-------------------------------------------------
---00000000000000000000000000000000-|-17-17-17-16-16-16-16-16-16-16-16-16--- *play G string w/ 16th note rhythm
---00000000000000000000000000000000-|-00000000000000000000000000000000---
-------------------------------------------------|-15-15-15-15-15-15-15-15-15-15-15-15--- *play A string w/ 16th note rhythm
---88888888888888888888888888888888-|-00000000000000000000000000000000---

-------------------------------------------------|---------------------------------------------------
---88888888777777777777777777777777-|----------------------------------------------------
---00000000000000000000000000000000-|-000000000000000000000000000000000---
---00000000000000000000000000000000-|-000000000000000000000000000000000----
-------------------------------------------------|-777777777777777777777777777777777----
---77777777777777777777777777777777-|-888888888888888888888888888888888----


Whitewash

Intro/Verse
------------------------------------------------------------------------- * ~ indicates slide
---10--1010-10-1010-7-77-5--55- 3----- 3~5-55-3--33-3~5555--
---11--1111--9--9-9- 7--77-6--66-4------4~6-66-4--44-4~6666--
----0---0--0--0--0-0 -0--00-0--00-0------0~0-00-0--00-0~0000--
----x---x-- x--x--x--x- x-- xx-x- -xx- x-----x   x--xx-x- xx-2~4444--
---10--1010--9--9-9- 7--77-5--55-3------3~5-55-3--33-----------

Guitar 2
-------22---------22---------21---------21----------
-----------17---------17---------17---------17------
---19---------19---------19---------19---------19--
------------------------------------------------------
------------------------------------------------------
------------------------------------------------------

-------19---------19---------21---------21----------I----17-------------17--
-----------17---------17---------17---------17------I-17-------------17------
---19---------19---------19---------19----------19-I------------19----------
-------------------------------------------------------I-------------------------
-------------------------------------------------------I-------------------------
-------------------------------------------------------I-------------------------

Cruel Heart
--------------0----------------0-----------------------
--2-----3--------- 2-----3----------7-----------6-----
--1----------------0----------------0-----------0------
--2----------------2----------------7-----------7------
--0----------------0----------------5-----------5------
---------------------------------------------------------
Lot 235
------------------------------------------------------
------------------------------------------------------
------------ 9-----------------------9--------------
-----0------0--0-0-0-0-0-0--0--0-0---0-0-0-----
--8-----8-- 8----8-8-8- x--x--x--x-x--- x-x-x------
------------------------- 8-8--8--8-8-- 8-8-8-----

------------------------------------------------------
------------------------------0-0--0--0-0--0-0-0--
-------------9----10-10-----0-0--0--0-0--0-0-0--
------0--0--0--0--0-  0--0- 2-2--2--2-2--2-2-2--
--8------8--8------8- 8-----3-3--3--3-3--3-3-3--
-----------------------------------------------------
Tumbleweed

intro
----------------------------------------------------------------------------------
----------------------------------------------------------------------------------
----------------------2-----2-----2-----2-----2-----2-----2-----2-------------
------0----0----0------0-----0-----0-----0-----0-----0-----0-----0-----------
---4----4----4----4------4-----4-----4-----4-----4-----4-----4-----4---------
----------------------------------------------------------------------------------

------------------------------------------------
------------------------------------------------
---2-----2-----2-----2------------------------
-----0-----0-----0-----0----0----0----0------
-------4-----4-----4-----2-----2----2---------
------------------------------------------------

verse
------------------------------------------------------------- |--------------------
-----------------------------------------------3------3----- | -000---------------
---------------------2-----2-----0-----0--------------------| -000-----7-777---
------0----0----0-----0-----0-----4-----4------0-----0----| -444-----0-000----
---4----4----4----4-----4-----5-----5-----2------2--------| -555-----x- xxx---
------------------------------------------------------------- | ----------7-777---

chorus

--------------------------------------------------  *b over string indicates bend
--------------------------------------(b)--------
---8--8-8-7-7-7-7-7---------- 4--4-4-4-4----
---8--8-8-x-x- x-x-x- 55-5--5-5--5-5-5-5----
---6--6-6-5-5-5-5-5-xx--x- x--x--x- x-x-x----
---6--6-6-------------33-3--3-3--3-3-3-3----